"[Guitar Tab] ~ Spyro The Dragon - Opening Theme " - Views: 429 · Hits: 429 - Type: Public

Tabbed By: Maximilian Gruber
Date: 5/10/2018
Tuning: Standard
Email: [email protected]
------------------------------------------------------------------  
Title: Opening Theme
Artist: Spyro The Dragon OST 
Composer: Stewart Copeland
Length: 3:33
BPM: 120
Key: A# Major
------------------------------------------------------------------
Instruments: Lead Guitar 1, Lead Guitar 2, Rhythm Guitar
Frets Required: 22
Sections: VIII
Repeats: 1


÷---------------------÷ Section I - Intro ÷----------------------÷

0:02
|----------------------------------------------------------------|  
|                          Lead Guitar                           |
e|-1515-15-------------------------------------------------------|
B|---------------------------------------------------------------|
G|---------------------------------------------------------------|
D|---------------------------------------------------------------|
A|---------------------------------------------------------------|
E|---------------------------------------------------------------|
|								 |
|----------------------------------------------------------------|  
|                         Rhythm Guitar                          |
e|---------------------------------------------------------------|
B|---------------------------------------------------------------|
G|------5------------------------------------3-------------------|
D|------5--------3------------------5--------3-------------------|
A|------3--------3------------------5--------1-------------------|
E|---------------1------------------3----------------------------| 

0:06 / 1:42
|----------------------------------------------------------------|  
|                          Lead Guitar                           |
e|---------------------------------------------------------------|
B|-*-------------------------------------------------------------|
G|---------------------------------------------------------------|
D|---------------------------------------------------------------|
A|-*-------------------------------------------------------------|
E|---------------------------------------------------------------|
|								 |
|----------------------------------------------------------------|  
|                         Rhythm Guitar                          |
e|---------------------------------------------------------------|
B|-*-------------------------------------------------------------|
G|------5------------------------------------3-------------------|
D|------5--------3------------------5--------3-------------------|
A|-*----3--------3------------------5--------1-------------------|
E|---------------1------------------3----------------------------|

0:10 / 1:46
|----------------------------------------------------------------|  
|                          Lead Guitar                           |
e|---------------------------------------------------------------|
B|-------------------10------------------------------------------|
G|---------9-10----10---10-7-------------------------------------|
D|------10-------------------10----------------------------------|
A|---------------------------------------------------------------|
E|---------------------------------------------------------------|
|								 |
|----------------------------------------------------------------|  
|                         Rhythm Guitar                          |
e|---------------------------------------------------------------|
B|---------------------------------------------------------------|
G|------5------------------------------------3-------------------|
D|------5--------3------------------5--------3-------------------|
A|------3--------3------------------5--------1-------------------|
E|---------------1------------------3----------------------------|
[~~~~~~~~~~~~~~~~~~~~~~~~~~~~~~~~~~~~~~~~~~~~~~~~~~~~~~~~~~~[ x2 ]


÷---------------------÷ Section II - Verse ÷---------------------÷

0:18 / 1:54
|----------------------------------------------------------------|  
|                          Lead Guitar                           |
e|---------------------------------------------------------------|
B|---446--4---------4--6--(6\)-----------------------------------|
G|-55----5-----3-5-----------------------------------------------|
D|---------------------------------------------------------------|
A|------------------------------13*-1-1----4--13*-3--------------|
E|---------------------------------------------------1-----------|
|~~~~~~~~~~~~~~~~~~~~~~~~~~~~~~~~~~~~~~~~~~~~~~~~~~~~~~~~~~~[ x2 ]
* This is represented as the 1st and 3rd frets respectively    

0:34 / 2:10
|----------------------------------------------------------------|  
|                            Bass Line                           |
|----------------------------------------------------------------|  


÷--------------------÷ Section III - Chorus ÷--------------------÷

0:42 / 2:18
|----------------------------------------------------------------|  
|                          Lead Guitar                           |
e|---------------------------------------------------------------|
B|------1-1-111133-----------------------------------------------|
G|------------------3-3------3--3--3-35-5------------------------|
D|-----------------------------------------3---------------------|
A|---------------------------------------------------------------|
E|---------------------------------------------------------------|
|								 |
|----------------------------------------------------------------|  
|                         Rhythm Guitar                          |
e|---------------------------------------------------------------|
B|-1-----------------------------------------1-------------------|
G|-2--------------------3--------------------2-------------------|
D|-3--------------------3--------------------3-------------------|
A|-3--------------------1--------------------3-------------------|
E|----------------------1----------------------------------------|
|~~~~~~~~~~~~~~~~~~~~~~~~~~~~~~~~~~~~~~~~~~~~~~~~~~~~~~~~~~~[ x2 ]


÷---------------÷ Section IV - Harmonized Verse ÷----------------÷

0:58 / 2:34 
|----------------------------------------------------------------|  
|                          Lead Guitar 1                         |
e|-----12----12-13---1317-13-------------------------------------|
B|---13---13-----------------15-13-------------------------------|
G|---------------------------------------------------------------|
D|---------------------------------------------------------------|
A|---------------------------------------------------------------|
E|---------------------------------------------------------------|
|								 |
|----------------------------------------------------------------|  
|                          Lead Guitar 2                         |
e|---------------------------------------------------------------|
B|---------------------10----------------------------------------|
G|-----------9--10---10---10-7-----------------------------------|
D|--------10-------------------10--------------------------------|
A|---------------------------------------------------------------|
E|---------------------------------------------------------------|
|								 |
|----------------------------------------------------------------|  
|                         Rhythm Guitar                          |
e|---------------------------------------------------------------|
B|---------------------------------------------------------------|
G|--------10-------------------------------------8---------------|
D|--------10--------8------------------10--------8---------------|
A|--------8---------8------------------10--------6---------------|
E|------------------6------------------8-------------------------|

1:02 / 2:38
|----------------------------------------------------------------|  
|                          Lead Guitar 1                         |
e|-----------12-13---1317-13-------------------------------------|
B|--------13-----------------15-13-------------------------------|
G|-------10------------------------------------------------------|
D|---------------------------------------------------------------|
A|---------------------------------------------------------------|
E|---------------------------------------------------------------|
|								 |
|----------------------------------------------------------------|  
|                          Lead Guitar 2                         |
e|---------------------------------------------------------------|
B|---------------------10----------------------------------------|
G|-----------9--10---10---10-7-----------------------------------|
D|--------10-------------------10--------------------------------|
A|---------------------------------------------------------------|
E|---------------------------------------------------------------|
|								 |
|----------------------------------------------------------------|  
|                         Rhythm Guitar                          |
e|---------------------------------------------------------------|
B|---------------------------------------------------------------|
G|--------10-------------------------------------8---------------|
D|--------10--------8------------------10--------8---------------|
A|--------8---------8------------------10--------6---------------|
E|------------------6------------------8-------------------------|

1:06 / 2:42
|----------------------------------------------------------------|  
|                          Lead Guitar 1                         |
e|-----------17-18---1822-18-------------------------------------|
B|--------18-----------------20-18-------------------------------|
G|---------------------------------------------------------------|
D|---------------------------------------------------------------|
A|---------------------------------------------------------------|
E|---------------------------------------------------------------|
|								 |
|----------------------------------------------------------------|  
|                          Lead Guitar 2                         |
e|-----------12-13---1317-13-------------------------------------|
B|--------13-----------------15-13-------------------------------|
G|---------------------------------------------------------------|
D|---------------------------------------------------------------|
A|---------------------------------------------------------------|
E|---------------------------------------------------------------|
|								 |
|----------------------------------------------------------------|  
|                         Rhythm Guitar                          |
e|---------------------------------------------------------------|
B|---------------------------------------------------------------|
G|--------10-------------------------------------8---------------|
D|--------10--------8------------------10--------8---------------|
A|--------8---------8------------------10--------6---------------|
E|------------------6------------------8-------------------------|

1:10 / 2:46
|----------------------------------------------------------------|  
|                          Lead Guitar 1                         |
e|-----------17-18---1822-18-------------------------------------|
B|--------18-----------------20-18-------------------------------|
G|-------17------------------------------------------------------|
D|---------------------------------------------------------------|
A|---------------------------------------------------------------|
E|---------------------------------------------------------------|
|								 |
|----------------------------------------------------------------|  
|                          Lead Guitar 2                         |
e|-----------12-13---1317-13-------------------------------------|
B|--------13-----------------15-13-------------------------------|
G|---------------------------------------------------------------|
D|---------------------------------------------------------------|
A|---------------------------------------------------------------|
E|---------------------------------------------------------------|
|								 |
|----------------------------------------------------------------|  
|                         Rhythm Guitar                          |
e|---------------------------------------------------------------|
B|---------------------------------------------------------------|
G|--------10-------------------------------------8---------------|
D|--------10--------8------------------10--------8---------------|
A|--------8---------8------------------10--------6---------------|
E|------------------6------------------8-------------------------|


÷--------------------÷ Section V - Verse 2 ÷---------------------÷

1:14 / 2:50
|----------------------------------------------------------------|  
|                          Lead Guitar                           |
e|---------------------------------------------------------------|
B|---446--4---------4--6--(6\)-----------------------------------|
G|-55----5-----3-5-----------------------------------------------|
D|---------------------------------------------------------------|
A|------------------------------13*-1-1----4--13*-3--------------|
E|---------------------------------------------------1-----------|

1:22 / 2:57
|----------------------------------------------------------------|  
|                          Lead Guitar                           |
e|---------------------------------------------------------------|
B|---446--4---------4--6--(6\)-----------------------------------|
G|-55----5-----3-5-----------------------------------------------|
D|---------------------------------------------------------------|
A|------------------------------13*-1-1----4--13*-3--------------|
E|---------------------------------------------------------------|
* This is represented as the 1st and 3rd frets respectively    


÷------------------÷ Section VI - Climactic Riff ÷-------------------÷

1:30 / 3:05
|----------------------------------------------------------------|  
|                          Lead Guitar                           |
e|---------------------------------------------------------------|
B|-1818--1818-------------------------------18-18-1818-1818-1818-|
G|---------------------------------------------------------------|
D|---------------------------------------------------------------|
A|---------------------------------------------------------------|
E|---------------------------------------------------------------|
|								 |
|----------------------------------------------------------------|  
|                         Rhythm Guitar                          |
e|---------------------------------------------------------------|
B|---------------------------------------------------------------|
G|---------10-------------------------------------8--------------|
D|---------10--------8------------------10--------8--------------|
A|---------8---------8------------------10--------6--------------|
E|-------------------6------------------8------------------------|

1:34 / 3:10
|----------------------------------------------------------------|  
|                          Lead Guitar                           |
e|------------------------------------------17p15-------18-------|
B|-1818---------------------------18-1818-18-----18---18---------|
G|-------------------------------------------------17------------|
D|---------------------------------------------------------------|
A|---------------------------------------------------------------|
E|---------------------------------------------------------------|
|								 |
|----------------------------------------------------------------|  
|                         Rhythm Guitar                          |
e|---------------------------------------------------------------|
B|---------------------------------------------------------------|
G|-10-------------------------------------8----------------------|
D|-10--------8------------------10--------8----------------------|
A|-8---------8------------------10--------6----------------------|
E|-----------6------------------8--------------------------------|


÷----------------÷ Section VII - Intro Variation ÷---------------÷

1:38
|----------------------------------------------------------------|  
|                          Lead Guitar                           |
e|---------------------------------------------------------------|
B|--18--18--18-------------------------------------------------*-|
G|---------------------------------------------------------------|
D|---------------------------------------------------------------|
A|-------------------------------------------------------------*-|
E|---------------------------------------------------------------|
|								 |
|----------------------------------------------------------------|  
|                         Rhythm Guitar                          |
e|---------------------------------------------------------------|
B|-------------------------------------------------------------*-|
G|-5------------------------------------3------------------------|
D|-5--------3------------------5--------3------------------------|
A|-3--------3------------------5--------1----------------------*-|
E|----------1------------------3---------------------------------|

 
÷--------------------÷ Section VIII - Outro ÷--------------------÷
>>>      			    			       <<<
>>							        <<
>								 <

3:17
|----------------------------------------------------------------|  
|                          Lead Guitar 1                         |
e|-----12----12-13---1317-13-------------------------------------|
B|---13---13-----------------15-13-------------------------------|
G|---------------------------------------------------------------|
D|---------------------------------------------------------------|
A|---------------------------------------------------------------|
E|---------------------------------------------------------------|
|								 |
|----------------------------------------------------------------|  
|                          Lead Guitar 2                         |
e|---------------------------------------------------------------|
B|---------------------10----------------------------------------|
G|-----------9--10---10---10-7-----------------------------------|
D|--------10-------------------10--------------------------------|
A|---------------------------------------------------------------|
E|---------------------------------------------------------------|
|								 |
|----------------------------------------------------------------|  
|                         Rhythm Guitar                          |
e|---------------------------------------------------------------|
B|---------------------------------------------------------------|
G|--------10-------------------------------------8---------------|
D|--------10--------8------------------10--------8---------------|
A|--------8---------8------------------10--------6---------------|
E|------------------6------------------8-------------------------|

3:23
|----------------------------------------------------------------|  
|                          Lead Guitar 1                         |
e|-----------12-13---1317-13-------------------------------------|
B|--------13-----------------15-13-------------------------------|
G|-------10------------------------------------------------------|
D|---------------------------------------------------------------|
A|---------------------------------------------------------------|
E|---------------------------------------------------------------|
|								 |
|----------------------------------------------------------------|  
|                          Lead Guitar 2                         |
e|---------------------------------------------------------------|
B|---------------------10----------------------------------------|
G|-----------9--10---10---10-7-----------------------------------|
D|--------10-------------------10--------------------------------|
A|---------------------------------------------------------------|
E|---------------------------------------------------------------|
|								 |
|----------------------------------------------------------------|  
|                         Rhythm Guitar                          |
e|---------------------------------------------------------------|
B|---------------------------------------------------------------|
G|--------10-------------------------------------8---------------|
D|--------10--------8------------------10--------8---------------|
A|--------8---------8------------------10--------6---------------|
E|------------------6------------------8-------------------------|

3:25
|----------------------------------------------------------------|  
|                          Lead Guitar 1                         |
e|-----------17-18---1822-18-------------------------------------|
B|--------18-----------------20-18-------------------------------|
G|---------------------------------------------------------------|
D|---------------------------------------------------------------|
A|---------------------------------------------------------------|
E|---------------------------------------------------------------|
|								 |
|----------------------------------------------------------------|  
|                          Lead Guitar 2                         |
e|-----------12-13---1317-13-------------------------------------|
B|--------13-----------------15-13-------------------------------|
G|---------------------------------------------------------------|
D|---------------------------------------------------------------|
A|---------------------------------------------------------------|
E|---------------------------------------------------------------|
|								 |
|----------------------------------------------------------------|  
|                         Rhythm Guitar                          |
e|---------------------------------------------------------------|
B|---------------------------------------------------------------|
G|--------10-------------------------------------8---------------|
D|--------10--------8------------------10--------8---------------|
A|--------8---------8------------------10--------6---------------|
E|------------------6------------------8-------------------------|

3:29
|----------------------------------------------------------------|  
|                          Lead Guitar 1                         |
e|-----------17-18---1822-18-------------------------------------|
B|--------18-----------------20-18-------------------------------|
G|-------17------------------------------------------------------|
D|---------------------------------------------------------------|
A|---------------------------------------------------------------|
E|---------------------------------------------------------------|
|								 |
|----------------------------------------------------------------|  
|                          Lead Guitar 2                         |
e|-----------12-13---1317-13-------------------------------------|
B|--------13-----------------15-13-------------------------------|
G|---------------------------------------------------------------|
D|---------------------------------------------------------------|
A|---------------------------------------------------------------|
E|---------------------------------------------------------------|
|								 |
|----------------------------------------------------------------|  
|                         Rhythm Guitar                          |
e|---------------------------------------------------------------|
B|---------------------------------------------------------------|
G|--------10-------------------------------------8---------------|
D|--------10--------8------------------10--------8---------------|
A|--------8---------8------------------10--------6---------------|
E|------------------6------------------8-------------------------|


- Tablature Legend -

------------------------------------------------------------------

| \   Slide down
| p   Pull-off
| >>> Fade out / Diminuendo
| ()  Notes are played for embellishment and aren't present in the
      original recording

------------------------------------------------------------------


------------------------------------------------------------------

|*										 
|   Repeat								          
|   Start									  
|*										 

-------------------------------------------------------------------


------------------------------------------------------------------

*|										 
 |  Repeat								          
 |  End									  
*|										 

-------------------------------------------------------------------